SongTrellis
Music and Musical Know-how For You

Members
Join Now
Login

Home | How-Tos | Directory | Our Composers | The Rhythms | Play Rhythm | Rhythm Web | Tonematrix | Chord Grid | The Changes | Song Discussions | Public Ideas | SongTrellis Recommends... | Video Links | Great Performances | SongTrellis Music Editor | The Lessons | Jukebox | The Animations | Our Contributors | Latest Topics | Tunetext | Workscore Chord Entry | Chord Entry By Grid | Workscore Composer | Music Tool Lore | Harmonic Interval Palette | Harmony Projects | Search | Video Demonstrations | Playlists | What's a Songtrellis? | FAQ | Feedback


Edie's Song (Who'll Miss You More?) with bass tabs

Composer Napoleon Joseph Martin    (click to list other tunes)
Copyright Copyright ©2006
Submitted by Nappy Martin
Posted 7/1/06; 5:21:54 AM
Msg# 4870 (top msg in thread)
Prev/Next 4869/4871
Reads 1671


Download track using:   

whoíll miss you more (edieís song)

when i first set eyes upon you

a strange light filled the air

had anyone noticed the sparks

that flew high and low

was it love or just chemistry

could either find a way

in a flash you'd be gone for good

whose good i donít know

oh i could be free without you-u

if i could foresee without you-u

any way to grow, any where to go

far beyond the reach of the whispering fools

and I could find peace beyond you-u

from the madness they wreak upon you-u

showing them the score, not to settle for

whisp'ring at the door who'll miss you more

 

sunny skies, the gentlest of winds,

bring only stagnancy

till the dance of your cigarette smoke,

refreshes the air

silly rules and disparities,

have done their distancing

but the moment is ours for now,

whatever the fare

oh i could be free without you,

if i could foresee without you

any way to grow, anywhere to go

far beyond the reach of the whispering fools

and i could find peace beyond you,

from the madness they wreak upon you

showing them the score, not to settle for

whispering at your door, whoíll miss you more

 

to see you starved for tender graces

while mine are trapped in reserves

look at us defending places,

that neither deserves

oh, i could be free without you,

if i could foresee without you

any way to grow, anywhere to go

far beyond the reach of the whispering fools

and i could find peace beyond you,

from the madness they wreak upon you

showing them the score, not to settle for

whispering at your door, whoíll miss you more

 

(c)2006 Ryeside Music (BMI)

===========================================

Bass Tablature: 

Edie's Song (Whoíll Miss You More)

Verse

-------- -------- -------- -------- -------- -------- -------- --------

22------ 22------ 22------ 22------ 22------ 22------ -------- --------

-------- -------- -------- -------- -------- -------- 44------ 22------

======== ======== ======== ======== ======== ======== ======== ========

 

-------- -------- -------- -------- -------- -------- -------- --------

22------ 22------ 22------ 22------ 22------ 22------ -------- ----4-4-

-------- -------- -------- -------- -------- -------- 44------ 5-5-----

======== ======== ======== ======== ======== ======== ======== ========

 

Chorus

----2--2 -------- -------- -------- 4--4--24 5------- ----42-- --------

5--5---- ----2--4 5--5---- -----242 -----4-- -----2-4 5--5---5 ----4--4

-------- 5ó55---- ----3--3 5--55--- -------- ---3---- -------- 5-5-----

======== ======== ======== ======== ======== ======== ======== ========

 

----2--2 -------- ---45-4- 2------2 4--4--24 5------- ----2--- --------

5--5---- ----2--4 5------- -----24- -----4-- -----2-4 5--5-5-4 5-5-4-4-

-------- 5ó55---- -------- ---55--- -------- ---3---- -------- --------

======== ======== ======== ======== ======== ======== ======== ========

 

                                               to bridge       --------

                                                               5--55-3-

                                                               --------

                                                               ========

Bridge (then rep. chorus)

-------- -------- -------- -------- -------- -------- -------- --------

-------- -------- -----3-4 5--55-3- -------- -------8 7------- ----4-4-

6--66--- 6--66--- 5--55--- -------- 6--66--6 -----8-- -----3-6 5-5-----

======== ======== ======== ======== ======== 6==66=== ===55=== ========

 

Coda (post chorus)

-------- -------- ---12-1- -------- -------- -------- ----21-- --------

2--24ñ-4 -------1 2------- 4-----14 6--6--46 7------- 2--2ó--4 2222----

-------- 2--224-- -------- ---224-- -----6-- -----4-6 -------- --------

======== ======== ======== ======== ======== ===55=== ======== ========


There are responses to this message:
blog comments powered by Disqus

Please join our community at SongTrellis. Our contributors welcome your comments, suggestions and requests. As soon as you join the site (or login if you are a member) a response form will appear here.

To include this sound in a page, type "Edie's Song (Who'll Miss You More?) with bass tabs 3", including the quotes.

Check home page to learn about newly submitted tunes, chord progressions, and rhythms.

 
 




Last update: Sunday, October 22, 2006 at 8:52 AM.